ISO-10303-21;
HEADER;
FILE_DESCRIPTION(('Creo Elements/Direct Modeling STEP Export'),'2;1');
FILE_NAME(
'C:/Users/TECCAD~1/AppData/Local/Temp/0ln7uvk4pr4seqf3496/0ln7uvk4pr4seq
g3496','2019-03-22T 9:49:54',(''),(''),
'PTC Creo Elements/Direct Modeling STEP processor for AP214 (Solid Model
)',
'PTC Creo Elements/Direct Modeling 19.0E  27-Jun-2016 (C) Parametric Tec
hnology GmbH','');
FILE_SCHEMA(('AUTOMOTIVE_DESIGN { 1 0 10303 214 1 1 1 1 }'));
ENDSEC;
DATA;
#10=CARTESIAN_POINT('',(51.312048,46.825278,75.4284126040313));
#20=DIRECTION('',(0.,0.,1.));
#30=DIRECTION('',(0.,-1.,0.));
#40=AXIS2_PLACEMENT_3D('',#10,#20,#30);
#50=CYLINDRICAL_SURFACE('',#40,3.00000000000006);
#60=CARTESIAN_POINT('',(51.312048,43.8252779999999,75.4284126040313));
#70=DIRECTION('',(0.,0.,1.));
#80=VECTOR('',#70,1.);
#90=LINE('',#60,#80);
#100=CARTESIAN_POINT('',(51.312048,43.8252779999999,74.8758587386261));
#110=VERTEX_POINT('',#100);
#120=CARTESIAN_POINT('',(51.312048,43.8252779999999,76.1397374694365));
#130=VERTEX_POINT('',#120);
#140=EDGE_CURVE('',#110,#130,#90,.T.);
#150=ORIENTED_EDGE('',*,*,#140,.F.);
#160=CARTESIAN_POINT('',(51.312048,46.825278,76.1397374694365));
#170=DIRECTION('',(0.,0.,1.));
#180=DIRECTION('',(0.,1.,0.));
#190=AXIS2_PLACEMENT_3D('',#160,#170,#180);
#200=CIRCLE('',#190,3.00000000000006);
#210=CARTESIAN_POINT('',(51.312048,49.8252780000001,76.1397374694365));
#220=VERTEX_POINT('',#210);
#230=EDGE_CURVE('',#130,#220,#200,.T.);
#240=ORIENTED_EDGE('',*,*,#230,.F.);
#250=CARTESIAN_POINT('',(51.312048,49.8252780000001,75.4284126040313));
#260=DIRECTION('',(0.,0.,1.));
#270=VECTOR('',#260,1.);
#280=LINE('',#250,#270);
#290=CARTESIAN_POINT('',(51.312048,49.8252780000001,74.8758587386261));
#300=VERTEX_POINT('',#290);
#310=EDGE_CURVE('',#300,#220,#280,.T.);
#320=ORIENTED_EDGE('',*,*,#310,.T.);
#330=CARTESIAN_POINT('',(51.312048,46.825278,74.8758587386261));
#340=DIRECTION('',(0.,0.,1.));
#350=DIRECTION('',(0.,1.,0.));
#360=AXIS2_PLACEMENT_3D('',#330,#340,#350);
#370=CIRCLE('',#360,3.00000000000006);
#380=EDGE_CURVE('',#110,#300,#370,.T.);
#390=ORIENTED_EDGE('',*,*,#380,.T.);
#400=EDGE_LOOP('',(#390,#320,#240,#150));
#410=FACE_OUTER_BOUND('',#400,.T.);
#420=ADVANCED_FACE('',(#410),#50,.T.);
#430=CARTESIAN_POINT('',(51.312048,46.825278,74.8758587386261));
#440=DIRECTION('',(0.,0.,1.));
#450=DIRECTION('',(0.,-1.,0.));
#460=AXIS2_PLACEMENT_3D('',#430,#440,#450);
#470=CONICAL_SURFACE('',#460,3.00000000000006,1.04719755119669);
#480=CARTESIAN_POINT('',(51.312048,49.8252780000001,74.8758587386261));
#490=DIRECTION('',(0.,0.866025403784487,0.499999999999917));
#500=VECTOR('',#490,3.46410161513763);
#510=LINE('',#480,#500);
#520=CARTESIAN_POINT('',(51.312048,48.550278,74.1397371454094));
#530=VERTEX_POINT('',#520);
#540=EDGE_CURVE('',#530,#300,#510,.T.);
#550=ORIENTED_EDGE('',*,*,#540,.F.);
#560=EDGE_CURVE('',#300,#110,#370,.T.);
#570=ORIENTED_EDGE('',*,*,#560,.F.);
#580=CARTESIAN_POINT('',(51.312048,43.8252779999999,74.8758587386261));
#590=DIRECTION('',(0.,-0.866025403784487,0.499999999999917));
#600=VECTOR('',#590,3.46410161513763);
#610=LINE('',#580,#600);
#620=CARTESIAN_POINT('',(51.312048,45.100278,74.1397371454094));
#630=VERTEX_POINT('',#620);
#640=EDGE_CURVE('',#630,#110,#610,.T.);
#650=ORIENTED_EDGE('',*,*,#640,.T.);
#660=CARTESIAN_POINT('',(51.312048,46.825278,74.1397371454094));
#670=DIRECTION('',(0.,0.,1.));
#680=DIRECTION('',(0.,-1.,0.));
#690=AXIS2_PLACEMENT_3D('',#660,#670,#680);
#700=CIRCLE('',#690,1.725);
#710=EDGE_CURVE('',#530,#630,#700,.T.);
#720=ORIENTED_EDGE('',*,*,#710,.T.);
#730=EDGE_LOOP('',(#720,#650,#570,#550));
#740=FACE_OUTER_BOUND('',#730,.T.);
#750=ADVANCED_FACE('',(#740),#470,.T.);
#760=CARTESIAN_POINT('',(54.012048,46.825278,68.1397374694365));
#770=DIRECTION('',(0.,0.,1.));
#780=DIRECTION('',(1.,0.,0.));
#790=AXIS2_PLACEMENT_3D('',#760,#770,#780);
#800=PLANE('',#790);
#810=CARTESIAN_POINT('',(51.312048,46.825278,68.1397374694365));
#820=DIRECTION('',(0.,0.,1.));
#830=DIRECTION('',(0.,-1.,0.));
#840=AXIS2_PLACEMENT_3D('',#810,#820,#830);
#850=CIRCLE('',#840,1.725);
#860=CARTESIAN_POINT('',(51.312048,45.100278,68.1397374694365));
#870=VERTEX_POINT('',#860);
#880=CARTESIAN_POINT('',(51.312048,48.550278,68.1397374694365));
#890=VERTEX_POINT('',#880);
#900=EDGE_CURVE('',#870,#890,#850,.T.);
#910=ORIENTED_EDGE('',*,*,#900,.F.);
#920=EDGE_CURVE('',#890,#870,#850,.T.);
#930=ORIENTED_EDGE('',*,*,#920,.F.);
#940=EDGE_LOOP('',(#930,#910));
#950=FACE_BOUND('',#940,.T.);
#960=CARTESIAN_POINT('',(51.312048,46.825278,68.1397374694365));
#970=DIRECTION('',(0.,0.,1.));
#980=DIRECTION('',(1.,0.,0.));
#990=AXIS2_PLACEMENT_3D('',#960,#970,#980);
#1000=CIRCLE('',#990,2.00000000000006);
#1010=CARTESIAN_POINT('',(53.312048,46.825278,68.1397374694365));
#1020=VERTEX_POINT('',#1010);
#1030=CARTESIAN_POINT('',(49.3120479999999,46.825278,68.1397374694365));
#1040=VERTEX_POINT('',#1030);
#1050=EDGE_CURVE('',#1020,#1040,#1000,.T.);
#1060=ORIENTED_EDGE('',*,*,#1050,.T.);
#1070=CARTESIAN_POINT('',(51.312048,44.8252779999999,68.1397374694365));
#1080=VERTEX_POINT('',#1070);
#1090=EDGE_CURVE('',#1080,#1020,#1000,.T.);
#1100=ORIENTED_EDGE('',*,*,#1090,.T.);
#1110=EDGE_CURVE('',#1040,#1080,#1000,.T.);
#1120=ORIENTED_EDGE('',*,*,#1110,.T.);
#1130=EDGE_LOOP('',(#1120,#1100,#1060));
#1140=FACE_OUTER_BOUND('',#1130,.T.);
#1150=ADVANCED_FACE('',(#950,#1140),#800,.T.);
#1160=CARTESIAN_POINT('',(51.312048,46.825278,71.1397374694365));
#1170=DIRECTION('',(0.,0.,1.));
#1180=DIRECTION('',(0.,-1.,0.));
#1190=AXIS2_PLACEMENT_3D('',#1160,#1170,#1180);
#1200=CYLINDRICAL_SURFACE('',#1190,1.725);
#1210=CARTESIAN_POINT('',(51.312048,48.550278,71.1397374694365));
#1220=DIRECTION('',(0.,0.,1.));
#1230=VECTOR('',#1220,1.);
#1240=LINE('',#1210,#1230);
#1250=EDGE_CURVE('',#890,#530,#1240,.T.);
#1260=ORIENTED_EDGE('',*,*,#1250,.F.);
#1270=ORIENTED_EDGE('',*,*,#710,.F.);
#1280=CARTESIAN_POINT('',(51.312048,45.100278,71.1397374694365));
#1290=DIRECTION('',(0.,0.,1.));
#1300=VECTOR('',#1290,1.);
#1310=LINE('',#1280,#1300);
#1320=EDGE_CURVE('',#870,#630,#1310,.T.);
#1330=ORIENTED_EDGE('',*,*,#1320,.T.);
#1340=ORIENTED_EDGE('',*,*,#920,.T.);
#1350=EDGE_LOOP('',(#1340,#1330,#1270,#1260));
#1360=FACE_OUTER_BOUND('',#1350,.T.);
#1370=ADVANCED_FACE('',(#1360),#1200,.T.);
#1380=CARTESIAN_POINT('',(51.312048,46.825278,66.4397374694366));
#1390=DIRECTION('',(0.,0.,1.));
#1400=DIRECTION('',(0.,-1.,0.));
#1410=AXIS2_PLACEMENT_3D('',#1380,#1390,#1400);
#1420=CYLINDRICAL_SURFACE('',#1410,3.00000000000006);
#1430=CARTESIAN_POINT('',(51.312048,43.8252779999999,66.4397374694366));
#1440=DIRECTION('',(0.,0.,1.));
#1450=VECTOR('',#1440,1.);
#1460=LINE('',#1430,#1450);
#1470=CARTESIAN_POINT('',(51.312048,43.8252779999999,65.7397374694365));
#1480=VERTEX_POINT('',#1470);
#1490=CARTESIAN_POINT('',(51.312048,43.8252779999999,67.1397374694365));
#1500=VERTEX_POINT('',#1490);
#1510=EDGE_CURVE('',#1480,#1500,#1460,.T.);
#1520=ORIENTED_EDGE('',*,*,#1510,.F.);
#1530=CARTESIAN_POINT('',(51.312048,46.825278,67.1397374694365));
#1540=DIRECTION('',(0.,0.,1.));
#1550=DIRECTION('',(1.,0.,0.));
#1560=AXIS2_PLACEMENT_3D('',#1530,#1540,#1550);
#1570=CIRCLE('',#1560,3.00000000000006);
#1580=CARTESIAN_POINT('',(54.312048,46.825278,67.1397374694365));
#1590=VERTEX_POINT('',#1580);
#1600=EDGE_CURVE('',#1500,#1590,#1570,.T.);
#1610=ORIENTED_EDGE('',*,*,#1600,.F.);
#1620=CARTESIAN_POINT('',(51.312048,49.8252780000001,67.1397374694365));
#1630=VERTEX_POINT('',#1620);
#1640=EDGE_CURVE('',#1590,#1630,#1570,.T.);
#1650=ORIENTED_EDGE('',*,*,#1640,.F.);
#1660=CARTESIAN_POINT('',(51.312048,49.8252780000001,66.4397374694366));
#1670=DIRECTION('',(0.,0.,1.));
#1680=VECTOR('',#1670,1.);
#1690=LINE('',#1660,#1680);
#1700=CARTESIAN_POINT('',(51.312048,49.8252780000001,65.7397374694365));
#1710=VERTEX_POINT('',#1700);
#1720=EDGE_CURVE('',#1710,#1630,#1690,.T.);
#1730=ORIENTED_EDGE('',*,*,#1720,.T.);
#1740=CARTESIAN_POINT('',(51.312048,46.825278,65.7397374694365));
#1750=DIRECTION('',(0.,0.,1.));
#1760=DIRECTION('',(0.,1.,0.));
#1770=AXIS2_PLACEMENT_3D('',#1740,#1750,#1760);
#1780=CIRCLE('',#1770,3.00000000000006);
#1790=EDGE_CURVE('',#1480,#1710,#1780,.T.);
#1800=ORIENTED_EDGE('',*,*,#1790,.T.);
#1810=EDGE_LOOP('',(#1800,#1730,#1650,#1610,#1520));
#1820=FACE_OUTER_BOUND('',#1810,.T.);
#1830=ADVANCED_FACE('',(#1820),#1420,.T.);
#1840=CARTESIAN_POINT('',(51.312048,46.825278,65.7397374694365));
#1850=DIRECTION('',(0.,0.,1.));
#1860=DIRECTION('',(0.,-1.,0.));
#1870=AXIS2_PLACEMENT_3D('',#1840,#1850,#1860);
#1880=CONICAL_SURFACE('',#1870,3.00000000000006,0.785398163397457);
#1890=CARTESIAN_POINT('',(51.312048,49.8252780000001,65.7397374694365));
#1900=DIRECTION('',(0.,0.707106781186553,0.707106781186542));
#1910=VECTOR('',#1900,4.24264068711933);
#1920=LINE('',#1890,#1910);
#1930=CARTESIAN_POINT('',(51.312048,48.8252780000001,64.7397374694366));
#1940=VERTEX_POINT('',#1930);
#1950=EDGE_CURVE('',#1940,#1710,#1920,.T.);
#1960=ORIENTED_EDGE('',*,*,#1950,.F.);
#1970=EDGE_CURVE('',#1710,#1480,#1780,.T.);
#1980=ORIENTED_EDGE('',*,*,#1970,.F.);
#1990=CARTESIAN_POINT('',(51.312048,43.8252779999999,65.7397374694365));
#2000=DIRECTION('',(0.,-0.707106781186553,0.707106781186542));
#2010=VECTOR('',#2000,4.24264068711933);
#2020=LINE('',#1990,#2010);
#2030=CARTESIAN_POINT('',(51.312048,44.8252779999999,64.7397374694366));
#2040=VERTEX_POINT('',#2030);
#2050=EDGE_CURVE('',#2040,#1480,#2020,.T.);
#2060=ORIENTED_EDGE('',*,*,#2050,.T.);
#2070=CARTESIAN_POINT('',(51.312048,46.825278,64.7397374694366));
#2080=DIRECTION('',(0.,0.,1.));
#2090=DIRECTION('',(0.,-1.,0.));
#2100=AXIS2_PLACEMENT_3D('',#2070,#2080,#2090);
#2110=CIRCLE('',#2100,2.00000000000011);
#2120=EDGE_CURVE('',#1940,#2040,#2110,.T.);
#2130=ORIENTED_EDGE('',*,*,#2120,.T.);
#2140=EDGE_LOOP('',(#2130,#2060,#1980,#1960));
#2150=FACE_OUTER_BOUND('',#2140,.T.);
#2160=ADVANCED_FACE('',(#2150),#1880,.T.);
#2170=CARTESIAN_POINT('',(51.312048,46.825278,49.1397374694366));
#2180=DIRECTION('',(0.,0.,-1.));
#2190=DIRECTION('',(-1.,0.,0.));
#2200=AXIS2_PLACEMENT_3D('',#2170,#2180,#2190);
#2210=SPHERICAL_SURFACE('',#2200,2.);
#2220=CARTESIAN_POINT('',(51.312048,46.825278,49.1397374694366));
#2230=DIRECTION('',(0.,1.,0.));
#2240=DIRECTION('',(1.,0.,0.));
#2250=AXIS2_PLACEMENT_3D('',#2220,#2230,#2240);
#2260=CIRCLE('',#2250,2.);
#2270=CARTESIAN_POINT('',(53.312048,46.825278,49.1397374694366));
#2280=VERTEX_POINT('',#2270);
#2290=CARTESIAN_POINT('',(51.312048,46.825278,47.1397374694366));
#2300=VERTEX_POINT('',#2290);
#2310=EDGE_CURVE('',#2280,#2300,#2260,.T.);
#2320=ORIENTED_EDGE('',*,*,#2310,.F.);
#2330=CARTESIAN_POINT('',(49.312048,46.825278,49.1397374694366));
#2340=VERTEX_POINT('',#2330);
#2350=EDGE_CURVE('',#2300,#2340,#2260,.T.);
#2360=ORIENTED_EDGE('',*,*,#2350,.F.);
#2370=CARTESIAN_POINT('',(51.312048,46.825278,49.1397374694366));
#2380=DIRECTION('',(0.,0.,1.));
#2390=DIRECTION('',(0.,-1.,0.));
#2400=AXIS2_PLACEMENT_3D('',#2370,#2380,#2390);
#2410=CIRCLE('',#2400,2.00000000000011);
#2420=CARTESIAN_POINT('',(51.312048,44.8252779999999,49.1397374694366));
#2430=VERTEX_POINT('',#2420);
#2440=EDGE_CURVE('',#2340,#2430,#2410,.T.);
#2450=ORIENTED_EDGE('',*,*,#2440,.F.);
#2460=EDGE_CURVE('',#2430,#2280,#2410,.T.);
#2470=ORIENTED_EDGE('',*,*,#2460,.F.);
#2480=EDGE_LOOP('',(#2470,#2450,#2360,#2320));
#2490=FACE_OUTER_BOUND('',#2480,.T.);
#2500=ADVANCED_FACE('',(#2490),#2210,.T.);
#2510=CARTESIAN_POINT('',(51.312048,49.4502780000001,76.1397374694365));
#2520=DIRECTION('',(-0.,0.,1.));
#2530=DIRECTION('',(0.,-1.,0.));
#2540=AXIS2_PLACEMENT_3D('',#2510,#2520,#2530);
#2550=PLANE('',#2540);
#2560=CARTESIAN_POINT('',(51.312048,46.825278,76.1397374694365));
#2570=DIRECTION('',(0.,0.,-1.));
#2580=DIRECTION('',(-1.,0.,0.));
#2590=AXIS2_PLACEMENT_3D('',#2560,#2570,#2580);
#2600=CIRCLE('',#2590,1.8);
#2610=CARTESIAN_POINT('',(53.112048,46.825278,76.1397374694365));
#2620=VERTEX_POINT('',#2610);
#2630=CARTESIAN_POINT('',(49.512048,46.825278,76.1397374694365));
#2640=VERTEX_POINT('',#2630);
#2650=EDGE_CURVE('',#2620,#2640,#2600,.T.);
#2660=ORIENTED_EDGE('',*,*,#2650,.T.);
#2670=CARTESIAN_POINT('',(51.312048,48.625278,76.1397374694365));
#2680=VERTEX_POINT('',#2670);
#2690=EDGE_CURVE('',#2680,#2620,#2600,.T.);
#2700=ORIENTED_EDGE('',*,*,#2690,.T.);
#2710=EDGE_CURVE('',#2640,#2680,#2600,.T.);
#2720=ORIENTED_EDGE('',*,*,#2710,.T.);
#2730=EDGE_LOOP('',(#2720,#2700,#2660));
#2740=FACE_BOUND('',#2730,.T.);
#2750=EDGE_CURVE('',#220,#130,#200,.T.);
#2760=ORIENTED_EDGE('',*,*,#2750,.T.);
#2770=ORIENTED_EDGE('',*,*,#230,.T.);
#2780=EDGE_LOOP('',(#2770,#2760));
#2790=FACE_OUTER_BOUND('',#2780,.T.);
#2800=ADVANCED_FACE('',(#2740,#2790),#2550,.T.);
#2810=CARTESIAN_POINT('',(51.312048,46.825278,67.1397374694365));
#2820=DIRECTION('',(0.,0.,1.));
#2830=DIRECTION('',(1.,0.,0.));
#2840=AXIS2_PLACEMENT_3D('',#2810,#2820,#2830);
#2850=TOROIDAL_SURFACE('',#2840,2.00000000000006,1.);
#2860=ORIENTED_EDGE('',*,*,#1090,.F.);
#2870=CARTESIAN_POINT('',(53.312048,46.825278,67.1397374694365));
#2880=DIRECTION('',(0.,1.,0.));
#2890=DIRECTION('',(-1.,0.,0.));
#2900=AXIS2_PLACEMENT_3D('',#2870,#2880,#2890);
#2910=CIRCLE('',#2900,1.);
#2920=EDGE_CURVE('',#1020,#1590,#2910,.T.);
#2930=ORIENTED_EDGE('',*,*,#2920,.F.);
#2940=ORIENTED_EDGE('',*,*,#1600,.T.);
#2950=CARTESIAN_POINT('',(48.3120479999999,46.825278,67.1397374694365));
#2960=VERTEX_POINT('',#2950);
#2970=EDGE_CURVE('',#2960,#1500,#1570,.T.);
#2980=ORIENTED_EDGE('',*,*,#2970,.T.);
#2990=CARTESIAN_POINT('',(49.3120479999999,46.825278,67.1397374694365));
#3000=DIRECTION('',(0.,-1.,0.));
#3010=DIRECTION('',(1.,0.,0.));
#3020=AXIS2_PLACEMENT_3D('',#2990,#3000,#3010);
#3030=CIRCLE('',#3020,1.);
#3040=EDGE_CURVE('',#1040,#2960,#3030,.T.);
#3050=ORIENTED_EDGE('',*,*,#3040,.T.);
#3060=ORIENTED_EDGE('',*,*,#1110,.F.);
#3070=EDGE_LOOP('',(#3060,#3050,#2980,#2940,#2930,#2860));
#3080=FACE_OUTER_BOUND('',#3070,.T.);
#3090=ADVANCED_FACE('',(#3080),#2850,.T.);
#3100=CARTESIAN_POINT('',(51.312048,46.825278,67.1397374694365));
#3110=DIRECTION('',(0.,0.,1.));
#3120=DIRECTION('',(-1.,0.,0.));
#3130=AXIS2_PLACEMENT_3D('',#3100,#3110,#3120);
#3140=PLANE('',#3130);
#3150=CARTESIAN_POINT('',(51.312048,46.825278,67.1397374694365));
#3160=DIRECTION('',(0.,0.,-1.));
#3170=DIRECTION('',(0.,1.,0.));
#3180=AXIS2_PLACEMENT_3D('',#3150,#3160,#3170);
#3190=CIRCLE('',#3180,1.1);
#3200=CARTESIAN_POINT('',(50.212048,46.825278,67.1397374694365));
#3210=VERTEX_POINT('',#3200);
#3220=CARTESIAN_POINT('',(51.312048,47.925278,67.1397374694365));
#3230=VERTEX_POINT('',#3220);
#3240=EDGE_CURVE('',#3210,#3230,#3190,.T.);
#3250=ORIENTED_EDGE('',*,*,#3240,.F.);
#3260=CARTESIAN_POINT('',(51.312048,45.725278,67.1397374694365));
#3270=VERTEX_POINT('',#3260);
#3280=EDGE_CURVE('',#3230,#3270,#3190,.T.);
#3290=ORIENTED_EDGE('',*,*,#3280,.F.);
#3300=EDGE_CURVE('',#3270,#3210,#3190,.T.);
#3310=ORIENTED_EDGE('',*,*,#3300,.F.);
#3320=EDGE_LOOP('',(#3310,#3290,#3250));
#3330=FACE_OUTER_BOUND('',#3320,.T.);
#3340=ADVANCED_FACE('',(#3330),#3140,.T.);
#3350=CARTESIAN_POINT('',(51.312048,46.825278,56.4361840788433));
#3360=DIRECTION('',(0.,0.,1.));
#3370=DIRECTION('',(0.,-1.,0.));
#3380=AXIS2_PLACEMENT_3D('',#3350,#3360,#3370);
#3390=CYLINDRICAL_SURFACE('',#3380,2.00000000000011);
#3400=CARTESIAN_POINT('',(51.312048,44.8252779999999,56.4361840788433));
#3410=DIRECTION('',(0.,0.,1.));
#3420=VECTOR('',#3410,1.);
#3430=LINE('',#3400,#3420);
#3440=CARTESIAN_POINT('',(51.312048,44.8252779999999,53.1397374694365));
#3450=VERTEX_POINT('',#3440);
#3460=EDGE_CURVE('',#2430,#3450,#3430,.T.);
#3470=ORIENTED_EDGE('',*,*,#3460,.F.);
#3480=CARTESIAN_POINT('',(51.312048,46.825278,53.1397374694365));
#3490=DIRECTION('',(0.,0.,1.));
#3500=DIRECTION('',(0.,-1.,0.));
#3510=AXIS2_PLACEMENT_3D('',#3480,#3490,#3500);
#3520=CIRCLE('',#3510,2.00000000000011);
#3530=CARTESIAN_POINT('',(51.312048,48.8252780000001,53.1397374694365));
#3540=VERTEX_POINT('',#3530);
#3550=EDGE_CURVE('',#3450,#3540,#3520,.T.);
#3560=ORIENTED_EDGE('',*,*,#3550,.F.);
#3570=CARTESIAN_POINT('',(51.312048,48.8252780000001,56.4361840788433));
#3580=DIRECTION('',(0.,0.,1.));
#3590=VECTOR('',#3580,1.);
#3600=LINE('',#3570,#3590);
#3610=CARTESIAN_POINT('',(51.312048,48.8252780000001,49.1397374694366));
#3620=VERTEX_POINT('',#3610);
#3630=EDGE_CURVE('',#3620,#3540,#3600,.T.);
#3640=ORIENTED_EDGE('',*,*,#3630,.T.);
#3650=EDGE_CURVE('',#2280,#3620,#2410,.T.);
#3660=ORIENTED_EDGE('',*,*,#3650,.T.);
#3670=ORIENTED_EDGE('',*,*,#2460,.T.);
#3680=EDGE_LOOP('',(#3670,#3660,#3640,#3560,#3470));
#3690=FACE_OUTER_BOUND('',#3680,.T.);
#3700=ADVANCED_FACE('',(#3690),#3390,.T.);
#3710=CARTESIAN_POINT('',(51.312048,46.825278,74.9273019041383));
#3720=DIRECTION('',(0.,0.,1.));
#3730=DIRECTION('',(1.,0.,0.));
#3740=AXIS2_PLACEMENT_3D('',#3710,#3720,#3730);
#3750=CONICAL_SURFACE('',#3740,1.1,0.523598775598298);
#3760=CARTESIAN_POINT('',(50.212048,46.825278,74.9273019041383));
#3770=DIRECTION('',(-0.5,0.,0.866025403784439));
#3780=VECTOR('',#3770,2.2);
#3790=LINE('',#3760,#3780);
#3800=CARTESIAN_POINT('',(50.212048,46.825278,74.9273019041383));
#3810=VERTEX_POINT('',#3800);
#3820=EDGE_CURVE('',#3810,#2640,#3790,.T.);
#3830=ORIENTED_EDGE('',*,*,#3820,.F.);
#3840=ORIENTED_EDGE('',*,*,#2710,.F.);
#3850=ORIENTED_EDGE('',*,*,#2690,.F.);
#3860=CARTESIAN_POINT('',(52.412048,46.825278,74.9273019041383));
#3870=DIRECTION('',(0.5,0.,0.866025403784439));
#3880=VECTOR('',#3870,2.2);
#3890=LINE('',#3860,#3880);
#3900=CARTESIAN_POINT('',(52.412048,46.825278,74.9273019041383));
#3910=VERTEX_POINT('',#3900);
#3920=EDGE_CURVE('',#3910,#2620,#3890,.T.);
#3930=ORIENTED_EDGE('',*,*,#3920,.T.);
#3940=CARTESIAN_POINT('',(51.312048,46.825278,74.9273019041383));
#3950=DIRECTION('',(0.,0.,-1.));
#3960=DIRECTION('',(-1.,0.,0.));
#3970=AXIS2_PLACEMENT_3D('',#3940,#3950,#3960);
#3980=CIRCLE('',#3970,1.1);
#3990=CARTESIAN_POINT('',(51.312048,47.925278,74.9273019041383));
#4000=VERTEX_POINT('',#3990);
#4010=EDGE_CURVE('',#4000,#3910,#3980,.T.);
#4020=ORIENTED_EDGE('',*,*,#4010,.T.);
#4030=EDGE_CURVE('',#3810,#4000,#3980,.T.);
#4040=ORIENTED_EDGE('',*,*,#4030,.T.);
#4050=EDGE_LOOP('',(#4040,#4020,#3930,#3850,#3840,#3830));
#4060=FACE_OUTER_BOUND('',#4050,.T.);
#4070=ADVANCED_FACE('',(#4060),#3750,.F.);
#4080=CARTESIAN_POINT('',(51.312048,46.825278,70.6252665113144));
#4090=DIRECTION('',(0.,0.,-1.));
#4100=DIRECTION('',(0.,1.,0.));
#4110=AXIS2_PLACEMENT_3D('',#4080,#4090,#4100);
#4120=CYLINDRICAL_SURFACE('',#4110,1.1);
#4130=CARTESIAN_POINT('',(51.312048,47.925278,70.6252665113144));
#4140=DIRECTION('',(0.,0.,-1.));
#4150=VECTOR('',#4140,1.);
#4160=LINE('',#4130,#4150);
#4170=EDGE_CURVE('',#4000,#3230,#4160,.T.);
#4180=ORIENTED_EDGE('',*,*,#4170,.F.);
#4190=ORIENTED_EDGE('',*,*,#3240,.T.);
#4200=ORIENTED_EDGE('',*,*,#3300,.T.);
#4210=CARTESIAN_POINT('',(51.312048,45.725278,70.6252665113144));
#4220=DIRECTION('',(0.,0.,-1.));
#4230=VECTOR('',#4220,1.);
#4240=LINE('',#4210,#4230);
#4250=CARTESIAN_POINT('',(51.312048,45.725278,74.9273019041383));
#4260=VERTEX_POINT('',#4250);
#4270=EDGE_CURVE('',#4260,#3270,#4240,.T.);
#4280=ORIENTED_EDGE('',*,*,#4270,.T.);
#4290=EDGE_CURVE('',#4260,#3810,#3980,.T.);
#4300=ORIENTED_EDGE('',*,*,#4290,.F.);
#4310=ORIENTED_EDGE('',*,*,#4030,.F.);
#4320=EDGE_LOOP('',(#4310,#4300,#4280,#4200,#4190,#4180));
#4330=FACE_OUTER_BOUND('',#4320,.T.);
#4340=ADVANCED_FACE('',(#4330),#4120,.F.);
#4350=CARTESIAN_POINT('',(51.312048,46.825278,56.4361840788433));
#4360=DIRECTION('',(0.,0.,1.));
#4370=DIRECTION('',(0.,-1.,0.));
#4380=AXIS2_PLACEMENT_3D('',#4350,#4360,#4370);
#4390=CYLINDRICAL_SURFACE('',#4380,2.00000000000011);
#4400=CARTESIAN_POINT('',(51.312048,48.8252780000001,56.4361840788433));
#4410=DIRECTION('',(0.,0.,1.));
#4420=VECTOR('',#4410,1.);
#4430=LINE('',#4400,#4420);
#4440=EDGE_CURVE('',#3540,#1940,#4430,.T.);
#4450=ORIENTED_EDGE('',*,*,#4440,.F.);
#4460=ORIENTED_EDGE('',*,*,#2120,.F.);
#4470=CARTESIAN_POINT('',(51.312048,44.8252779999999,56.4361840788433));
#4480=DIRECTION('',(0.,0.,1.));
#4490=VECTOR('',#4480,1.);
#4500=LINE('',#4470,#4490);
#4510=EDGE_CURVE('',#3450,#2040,#4500,.T.);
#4520=ORIENTED_EDGE('',*,*,#4510,.T.);
#4530=EDGE_CURVE('',#3540,#3450,#3520,.T.);
#4540=ORIENTED_EDGE('',*,*,#4530,.T.);
#4550=EDGE_LOOP('',(#4540,#4520,#4460,#4450));
#4560=FACE_OUTER_BOUND('',#4550,.T.);
#4570=ADVANCED_FACE('',(#4560),#4390,.T.);
#4580=CARTESIAN_POINT('',(51.312048,46.825278,74.8758587386261));
#4590=DIRECTION('',(0.,0.,1.));
#4600=DIRECTION('',(0.,-1.,0.));
#4610=AXIS2_PLACEMENT_3D('',#4580,#4590,#4600);
#4620=CONICAL_SURFACE('',#4610,3.00000000000006,1.04719755119669);
#4630=ORIENTED_EDGE('',*,*,#540,.T.);
#4640=EDGE_CURVE('',#630,#530,#700,.T.);
#4650=ORIENTED_EDGE('',*,*,#4640,.T.);
#4660=ORIENTED_EDGE('',*,*,#640,.F.);
#4670=ORIENTED_EDGE('',*,*,#380,.F.);
#4680=EDGE_LOOP('',(#4670,#4660,#4650,#4630));
#4690=FACE_OUTER_BOUND('',#4680,.T.);
#4700=ADVANCED_FACE('',(#4690),#4620,.T.);
#4710=CARTESIAN_POINT('',(51.312048,46.825278,65.7397374694365));
#4720=DIRECTION('',(0.,0.,1.));
#4730=DIRECTION('',(0.,-1.,0.));
#4740=AXIS2_PLACEMENT_3D('',#4710,#4720,#4730);
#4750=CONICAL_SURFACE('',#4740,3.00000000000006,0.785398163397457);
#4760=ORIENTED_EDGE('',*,*,#1950,.T.);
#4770=EDGE_CURVE('',#2040,#1940,#2110,.T.);
#4780=ORIENTED_EDGE('',*,*,#4770,.T.);
#4790=ORIENTED_EDGE('',*,*,#2050,.F.);
#4800=ORIENTED_EDGE('',*,*,#1790,.F.);
#4810=EDGE_LOOP('',(#4800,#4790,#4780,#4760));
#4820=FACE_OUTER_BOUND('',#4810,.T.);
#4830=ADVANCED_FACE('',(#4820),#4750,.T.);
#4840=CARTESIAN_POINT('',(51.312048,46.825278,70.6252665113144));
#4850=DIRECTION('',(0.,0.,-1.));
#4860=DIRECTION('',(0.,1.,0.));
#4870=AXIS2_PLACEMENT_3D('',#4840,#4850,#4860);
#4880=CYLINDRICAL_SURFACE('',#4870,1.1);
#4890=ORIENTED_EDGE('',*,*,#3280,.T.);
#4900=ORIENTED_EDGE('',*,*,#4170,.T.);
#4910=ORIENTED_EDGE('',*,*,#4010,.F.);
#4920=EDGE_CURVE('',#3910,#4260,#3980,.T.);
#4930=ORIENTED_EDGE('',*,*,#4920,.F.);
#4940=ORIENTED_EDGE('',*,*,#4270,.F.);
#4950=EDGE_LOOP('',(#4940,#4930,#4910,#4900,#4890));
#4960=FACE_OUTER_BOUND('',#4950,.T.);
#4970=ADVANCED_FACE('',(#4960),#4880,.F.);
#4980=CARTESIAN_POINT('',(51.312048,46.825278,75.4284126040313));
#4990=DIRECTION('',(0.,0.,1.));
#5000=DIRECTION('',(0.,-1.,0.));
#5010=AXIS2_PLACEMENT_3D('',#4980,#4990,#5000);
#5020=CYLINDRICAL_SURFACE('',#5010,3.00000000000006);
#5030=ORIENTED_EDGE('',*,*,#560,.T.);
#5040=ORIENTED_EDGE('',*,*,#310,.F.);
#5050=ORIENTED_EDGE('',*,*,#2750,.F.);
#5060=ORIENTED_EDGE('',*,*,#140,.T.);
#5070=EDGE_LOOP('',(#5060,#5050,#5040,#5030));
#5080=FACE_OUTER_BOUND('',#5070,.T.);
#5090=ADVANCED_FACE('',(#5080),#5020,.T.);
#5100=ORIENTED_EDGE('',*,*,#4770,.F.);
#5110=ORIENTED_EDGE('',*,*,#4440,.T.);
#5120=ORIENTED_EDGE('',*,*,#3550,.T.);
#5130=ORIENTED_EDGE('',*,*,#4510,.F.);
#5140=EDGE_LOOP('',(#5130,#5120,#5110,#5100));
#5150=FACE_OUTER_BOUND('',#5140,.T.);
#5160=ADVANCED_FACE('',(#5150),#3390,.T.);
#5170=CARTESIAN_POINT('',(51.312048,46.825278,71.1397374694365));
#5180=DIRECTION('',(0.,0.,1.));
#5190=DIRECTION('',(0.,-1.,0.));
#5200=AXIS2_PLACEMENT_3D('',#5170,#5180,#5190);
#5210=CYLINDRICAL_SURFACE('',#5200,1.725);
#5220=ORIENTED_EDGE('',*,*,#4640,.F.);
#5230=ORIENTED_EDGE('',*,*,#1250,.T.);
#5240=ORIENTED_EDGE('',*,*,#900,.T.);
#5250=ORIENTED_EDGE('',*,*,#1320,.F.);
#5260=EDGE_LOOP('',(#5250,#5240,#5230,#5220));
#5270=FACE_OUTER_BOUND('',#5260,.T.);
#5280=ADVANCED_FACE('',(#5270),#5210,.T.);
#5290=ORIENTED_EDGE('',*,*,#3460,.T.);
#5300=ORIENTED_EDGE('',*,*,#2440,.T.);
#5310=EDGE_CURVE('',#3620,#2340,#2410,.T.);
#5320=ORIENTED_EDGE('',*,*,#5310,.T.);
#5330=ORIENTED_EDGE('',*,*,#3630,.F.);
#5340=ORIENTED_EDGE('',*,*,#4530,.F.);
#5350=EDGE_LOOP('',(#5340,#5330,#5320,#5300,#5290));
#5360=FACE_OUTER_BOUND('',#5350,.T.);
#5370=ADVANCED_FACE('',(#5360),#4390,.T.);
#5380=CARTESIAN_POINT('',(51.312048,46.825278,66.4397374694366));
#5390=DIRECTION('',(0.,0.,1.));
#5400=DIRECTION('',(0.,-1.,0.));
#5410=AXIS2_PLACEMENT_3D('',#5380,#5390,#5400);
#5420=CYLINDRICAL_SURFACE('',#5410,3.00000000000006);
#5430=ORIENTED_EDGE('',*,*,#1510,.T.);
#5440=ORIENTED_EDGE('',*,*,#1970,.T.);
#5450=ORIENTED_EDGE('',*,*,#1720,.F.);
#5460=EDGE_CURVE('',#1630,#2960,#1570,.T.);
#5470=ORIENTED_EDGE('',*,*,#5460,.F.);
#5480=ORIENTED_EDGE('',*,*,#2970,.F.);
#5490=EDGE_LOOP('',(#5480,#5470,#5450,#5440,#5430));
#5500=FACE_OUTER_BOUND('',#5490,.T.);
#5510=ADVANCED_FACE('',(#5500),#5420,.T.);
#5520=CARTESIAN_POINT('',(51.312048,46.825278,74.9273019041383));
#5530=DIRECTION('',(0.,0.,1.));
#5540=DIRECTION('',(1.,0.,0.));
#5550=AXIS2_PLACEMENT_3D('',#5520,#5530,#5540);
#5560=CONICAL_SURFACE('',#5550,1.1,0.523598775598298);
#5570=ORIENTED_EDGE('',*,*,#4290,.T.);
#5580=ORIENTED_EDGE('',*,*,#4920,.T.);
#5590=ORIENTED_EDGE('',*,*,#3920,.F.);
#5600=ORIENTED_EDGE('',*,*,#2650,.F.);
#5610=ORIENTED_EDGE('',*,*,#3820,.T.);
#5620=EDGE_LOOP('',(#5610,#5600,#5590,#5580,#5570));
#5630=FACE_OUTER_BOUND('',#5620,.T.);
#5640=ADVANCED_FACE('',(#5630),#5560,.F.);
#5650=CARTESIAN_POINT('',(51.312048,46.825278,67.1397374694365));
#5660=DIRECTION('',(0.,0.,1.));
#5670=DIRECTION('',(1.,0.,0.));
#5680=AXIS2_PLACEMENT_3D('',#5650,#5660,#5670);
#5690=TOROIDAL_SURFACE('',#5680,2.00000000000006,1.);
#5700=ORIENTED_EDGE('',*,*,#1050,.F.);
#5710=ORIENTED_EDGE('',*,*,#3040,.F.);
#5720=ORIENTED_EDGE('',*,*,#5460,.T.);
#5730=ORIENTED_EDGE('',*,*,#1640,.T.);
#5740=ORIENTED_EDGE('',*,*,#2920,.T.);
#5750=EDGE_LOOP('',(#5740,#5730,#5720,#5710,#5700));
#5760=FACE_OUTER_BOUND('',#5750,.T.);
#5770=ADVANCED_FACE('',(#5760),#5690,.T.);
#5780=CARTESIAN_POINT('',(51.312048,46.825278,49.1397374694366));
#5790=DIRECTION('',(0.,0.,-1.));
#5800=DIRECTION('',(-1.,0.,0.));
#5810=AXIS2_PLACEMENT_3D('',#5780,#5790,#5800);
#5820=SPHERICAL_SURFACE('',#5810,2.);
#5830=ORIENTED_EDGE('',*,*,#3650,.F.);
#5840=ORIENTED_EDGE('',*,*,#5310,.F.);
#5850=ORIENTED_EDGE('',*,*,#2350,.T.);
#5860=ORIENTED_EDGE('',*,*,#2310,.T.);
#5870=EDGE_LOOP('',(#5860,#5850,#5840,#5830));
#5880=FACE_OUTER_BOUND('',#5870,.T.);
#5890=ADVANCED_FACE('',(#5880),#5820,.T.);
#5900=CLOSED_SHELL('',(#420,#750,#1150,#1370,#1830,#2160,#2500,#2800,
#3090,#3340,#3700,#4070,#4340,#4570,#4700,#4830,#4970,#5090,#5160,#5280,
#5370,#5510,#5640,#5770,#5890));
#5910=MANIFOLD_SOLID_BREP('',#5900);
#5920=CARTESIAN_POINT('',(0.,0.,0.));
#5930=DIRECTION('',(0.,0.,1.));
#5940=DIRECTION('',(1.,0.,0.));
#5950=AXIS2_PLACEMENT_3D('',#5920,#5930,#5940);
#5960=APPLICATION_CONTEXT(' ');
#5970=APPLICATION_PROTOCOL_DEFINITION(' ','automotive_design',1998,#5960
);
#5980=PRODUCT_CONTEXT('',#5960,'mechanical');
#5990=PRODUCT_DEFINITION_CONTEXT('part definition',#5960,'design');
#6000=PRODUCT('RXM2D_2-5','RXM2D_2-5','',(#5980));
#6010=PRODUCT_RELATED_PRODUCT_CATEGORY('part',' ',(#6000));
#6020=PRODUCT_DEFINITION_FORMATION_WITH_SPECIFIED_SOURCE('','',#6000,
.BOUGHT.);
#6030=PRODUCT_DEFINITION('',' ',#6020,#5990);
#6040=PRODUCT_DEFINITION_SHAPE('','',#6030);
#6050=DIMENSIONAL_EXPONENTS(1.,0.,0.,0.,0.,0.,0.);
#6060=DIMENSIONAL_EXPONENTS(0.,0.,0.,0.,0.,0.,0.);
#6070=DIMENSIONAL_EXPONENTS(0.,0.,0.,0.,0.,0.,0.);
#6080=(LENGTH_UNIT() NAMED_UNIT(*) SI_UNIT(.MILLI.,.METRE.));
#6090=(NAMED_UNIT(*) PLANE_ANGLE_UNIT() SI_UNIT($,.RADIAN.));
#6100=(NAMED_UNIT(*) SI_UNIT($,.STERADIAN.) SOLID_ANGLE_UNIT());
#6110=(GEOMETRIC_REPRESENTATION_CONTEXT(3) 
GLOBAL_UNCERTAINTY_ASSIGNED_CONTEXT((#6120)) 
GLOBAL_UNIT_ASSIGNED_CONTEXT((#6080,#6090,#6100)) REPRESENTATION_CONTEXT
('',''));
#6120=UNCERTAINTY_MEASURE_WITH_UNIT(LENGTH_MEASURE(1.E-6),#6080,
'distance_accuracy_value','maximum gap value');
#6130=ADVANCED_BREP_SHAPE_REPRESENTATION('',(#5950,#5910),#6110);
#6140=SHAPE_DEFINITION_REPRESENTATION(#6040,#6130);
#6150=COLOUR_RGB('',1.,0.784313797950745,0.);
#6160=FILL_AREA_STYLE_COLOUR('',#6150);
#6170=FILL_AREA_STYLE('',(#6160));
#6180=SURFACE_STYLE_FILL_AREA(#6170);
#6190=SURFACE_SIDE_STYLE('',(#6180));
#6200=SURFACE_STYLE_USAGE(.BOTH.,#6190);
#6210=PRESENTATION_STYLE_ASSIGNMENT((#6200));
#6220=STYLED_ITEM('',(#6210),#5910);
#6230=DRAUGHTING_MODEL('',(#6220),#6110);
#6240=CARTESIAN_POINT('',(-51.0852250000001,46.9797929999999,
76.1397374694365));
#6250=DIRECTION('',(0.,0.,-1.));
#6260=DIRECTION('',(1.,0.,0.));
#6270=AXIS2_PLACEMENT_3D('',#6240,#6250,#6260);
#6280=ITEM_DEFINED_TRANSFORMATION('RXM2D_2-5','',#5950,#6270);
#6290=APPLICATION_CONTEXT(' ');
#6300=APPLICATION_PROTOCOL_DEFINITION(' ','automotive_design',1998,#6290
);
#6310=PRODUCT_CONTEXT('',#6290,'mechanical');
#6320=PRODUCT_DEFINITION_CONTEXT('part definition',#6290,'design');
#6330=PRODUCT('RXM2D_2-5','RXM2D_2-5','',(#6310));
#6340=PRODUCT_RELATED_PRODUCT_CATEGORY('part',' ',(#6330));
#6350=PRODUCT_DEFINITION_FORMATION_WITH_SPECIFIED_SOURCE('','',#6330,
.BOUGHT.);
#6360=PRODUCT_DEFINITION('',' ',#6350,#6320);
#6370=PRODUCT_DEFINITION_SHAPE('','',#6360);
#6380=DIMENSIONAL_EXPONENTS(1.,0.,0.,0.,0.,0.,0.);
#6390=DIMENSIONAL_EXPONENTS(0.,0.,0.,0.,0.,0.,0.);
#6400=DIMENSIONAL_EXPONENTS(0.,0.,0.,0.,0.,0.,0.);
#6410=(LENGTH_UNIT() NAMED_UNIT(*) SI_UNIT(.MILLI.,.METRE.));
#6420=(NAMED_UNIT(*) PLANE_ANGLE_UNIT() SI_UNIT($,.RADIAN.));
#6430=(NAMED_UNIT(*) SI_UNIT($,.STERADIAN.) SOLID_ANGLE_UNIT());
#6440=(GEOMETRIC_REPRESENTATION_CONTEXT(3) 
GLOBAL_UNCERTAINTY_ASSIGNED_CONTEXT((#6450)) 
GLOBAL_UNIT_ASSIGNED_CONTEXT((#6410,#6420,#6430)) REPRESENTATION_CONTEXT
('',''));
#6450=UNCERTAINTY_MEASURE_WITH_UNIT(LENGTH_MEASURE(1.E-6),#6410,
'distance_accuracy_value','maximum gap value');
#6460=SHAPE_REPRESENTATION('',(#5950,#6270),#6440);
#6470=SHAPE_DEFINITION_REPRESENTATION(#6370,#6460);
#6480=(REPRESENTATION_RELATIONSHIP('','',#6130,#6460) 
REPRESENTATION_RELATIONSHIP_WITH_TRANSFORMATION(#6280) 
SHAPE_REPRESENTATION_RELATIONSHIP());
#6490=NEXT_ASSEMBLY_USAGE_OCCURRENCE('1','','RXM2D_2-5',#6360,#6030,'');
#6500=PRODUCT_DEFINITION_SHAPE('','',#6490);
#6510=CONTEXT_DEPENDENT_SHAPE_REPRESENTATION(#6480,#6500);
ENDSEC;
END-ISO-10303-21;
